Anleitung: Tablett mit Weihnachtsmotiven in 3D-Technik

Tablett 3D Weihnachtsmotiv

Ihr erwartet in der Adventszeit öfter Gäste zum Nachmittagskaffee?

Serviert Euer leckeres Weihnachtsgebäck auf dem liebevoll mit Weihnachtsmotiven in 3D-Technik verzierten Tablett!

Es ist einfach und schnell nachzubasteln – wir zeigen Euch in der folgenden Anleitung, wie’s geht!

Tablett 3D Weihnachtsmotiv

Artikel
einblenden


------------------------------------------------------------1-----------------------------------------------------

Tablett 3D Weihnachtsmotiv Schritt 1

Zu Beginn grundiert Ihr das Tablett mit weißer Acrylfarbe.

Wenn sich die Holzfasern durch das Anmalen etwas aufstellen, schleift Ihr die Flächen mit dem Schleifschwamm ab.

Sollte die Farbe nicht richtig decken, übermalt Ihr alles einfach ein zweites Mal.

------------------------------------------------------------2-----------------------------------------------------

Tablett 3D Weihnachtsmotiv Schritt 2

Danach grundiert Ihr auch ein Blatt Prägefolie mit weißer Acrylfarbe.

------------------------------------------------------------3-----------------------------------------------------

Tablett 3D Weihnachtsmotiv Schritt 3

Sobald das Tablett getrocknet ist, könnt Ihr den Boden mit roter Acrylfarbe anmalen.

Übermalt ihn evtl. ein zweites Mal mit Rot.

------------------------------------------------------------4-----------------------------------------------------

Tablett 3D Weihnachtsmotiv Schritt 4

Anschließend schneidet Ihr das Vogelmotiv 4x und die Ilexmotive 6x aus der Serviette aus. Von den Zickzack-Streifen benötigt Ihr eine Motiv-Gesamtlänge von ca. 3,3 m.

Trennt dann von jedem Motiv die oberste, bedruckte Lage ab.

------------------------------------------------------------5-----------------------------------------------------

Tablett 3D Weihnachtsmotiv Schritt 5

Klebt die Zickzack-Streifen mit Serviettenkleber und einem weichen Pinsel am oberen und unteren äußeren Rand des Tabletts auf.

------------------------------------------------------------6-----------------------------------------------------

Tablett 3D Weihnachtsmotiv Schritt 6

Anschließend klebt Ihr die Vogel- und Ilexmotive zwischen die Zickzack-Ränder.

Von Griff zu Griff braucht Ihr 3x das Ilexmotiv und 2x das Vogelmotiv.

------------------------------------------------------------7-----------------------------------------------------

Tablett 3D Weihnachtsmotiv Schritt 7

Beklebt auch den inneren oberen Rand mit dem Zickzack-Streifenmotiv.

------------------------------------------------------------8-----------------------------------------------------

Tablett 3D Weihnachtsmotiv Schritt 8

Nun schneidet Ihr viele unterschiedlich große Schneeflocken aus der Serviette aus, löst die oberste, bedruckte Lage ab und klebt sie mit Serviettenkleber auf die innere weiße Fläche des Tablett-Randes.

------------------------------------------------------------9-----------------------------------------------------

Tablett 3D Weihnachtsmotiv Schritt 9

Als Nächstes schneidet Ihr noch einmal vier Vogelmotive aus der Serviette aus, trennt wieder die oberste, bedruckte Lage ab und klebt sie mit Serviettenkleber auf das weiß grundierte Prägemetall auf.

Lasst alles gut trocknen!

------------------------------------------------------------10-----------------------------------------------------

Tablett 3D Weihnachtsmotiv Schritt 10

Dann schneidet Ihr die einzelnen Motive sauber aus. Eine Pinzettenschere ist hierbei sehr hilfreich.

------------------------------------------------------------11-----------------------------------------------------

Tablett 3D Weihnachtsmotiv Schritt 11

Dann prägt Ihr die Motive mit Prägestiften auf der Prickelmatte oder einer anderen weichen Unterlage aus.

Zuerst zieht Ihr die Konturen auf der Vorderseite mit einem kleineren Prägestift nach.

Anschließend dreht Ihr das Motiv um und prägt die Flächen mit einem größeren Prägestift aus.

So entsteht der wunderbare 3D-Effekt.

------------------------------------------------------------12-----------------------------------------------------

Tablett 3D Weihnachtsmotiv Schritt 12

Nun klebt Ihr die MotivemitSilikonkleberauf das Tablett auf.

------------------------------------------------------------13-----------------------------------------------------

Tablett 3D Weihnachtsmotiv Schritt 13

So sieht Euer Tablett nun aus.

------------------------------------------------------------14-----------------------------------------------------

Tablett 3D Weihnachtsmotiv Schritt 15

Zum Schluss klebt Ihr verschieden große rote Holzperlen mit Silikonkleber auf die Beeren der Ilexmotive auf.

------------------------------------------------------------15-----------------------------------------------------

Tablett 3D Weihnachtsmotiv

Fertig ist Euer Tablett mit Weihnachtsmotiven in 3D-Technik!

Ihr möchtet die weißen Kaffeebecher passend zum Tablett gestalten?

So einfach geht’s:
Schneidet einige Serviettenmotive Eurer Wahl aus und klebt die oberste, bedruckte Lage mit Porzellan Potch auf.

Streicht zuerst nur ganz wenig davon auf die Tasse, dann positioniert Ihr das Serviettenmotiv und streicht anschließend noch einmal über das gesamte Motiv. Vermeidet es aber, mit dem Porzellan Potch über das Motiv hinaus zu streichen, da man dies sonst später sieht.

Zum Schluss brennt Ihr den Kaffeebecher ca. 90 min. bei 130° C im Backofen ein.

 

2 Kommentare Schreibe einen Kommentar

  1. Hallo,

    ich finde diese Idee wunderschön und werde mich in der Vorweihnachtszeit mal daran versuchen.
    Ich habe noch nie mit der Serviettentechnik gearbeitet und kenne mich damit nicht aus.
    Kann ich das Tablett und die Tassen dann ganz normal abwaschen oder sollten sie dafür noch eine extra Schutzschicht, z.B. mit einem besonderen Lack oder so, bekommen?

    Liebe Grüße

    Romy

  2. Hallo Romy,
    wenn Du das Tablett komplett, d.h. auch da wo keine Serviettenmotive sind, mit Serviettenkleber überstreichst, kannst Du es mit einem feuchten Lappen prima abwischen.

    Bei den Tassen verwendest Du wie in der Anleitung beschrieben den Porzellan-Potch und brennst sie anschließend im Backofen ein, dann kannst Du sie ganz normal von Hand abwaschen.
    Noch ein Hinweis: Bringe die Motive nicht zu hoch auf den Tassen an, sondern lasse den oberen Rand großzügig frei.

    Viele Grüße aus der buttinette-Blog Redaktion!

Schreibe einen Kommentar