Anleitung: Vogelhaus im Natur-Look mit Schneemann in 3D-Technik

Noch immer erfreut es sich großer Beliebtheit: das Vogelhaus! Die Gestaltungsmöglichkeiten sind nahezu unbegrenzt und je nach Thema oder Jahreszeit kann man wieder ein neues kleines Kunstwerk schaffen.

Wer gern im Natur-Look dekoriert und dafür noch auf der Suche nach etwas ganz Besonderem ist, wird hier fündig: wir zeigen Euch, wie Ihr das Vogelhaus mit Birkenrinden-Dach und niedlichen Motiven in 3D-Technik nachbasteln könnt.

vogelhaus-schneemann

Artikel
einblenden


------------------------------------------------------------1-----------------------------------------------------

vogelhaus-schneemann_schritt1Als Erstes bemalt Ihr das Vogelhaus und seinen Dachvorsprung mit brauner und hellgrauer Acrylfarbe. Verdünnt die Farben jeweils mit etwas Wasser, damit der Anstrich nicht deckend wird.

Lasst alles gut trocknen.

------------------------------------------------------------2-----------------------------------------------------

vogelhaus-schneemann_schritt2

Dann bemalt Ihr das Vogelhaus mit weißer Acrylfarbe.

------------------------------------------------------------3-----------------------------------------------------

vogelhaus-schneemann_schritt3

Anschließend grundiert Ihr ein Blatt Prägefolie ebenfalls mit weißer Acrylfarbe.

------------------------------------------------------------4-----------------------------------------------------

vogelhaus-schneemann_schritt4

Nachdem alles gut getrocknet ist, werden die weißen Oberflächen des Vogelhauses mit einem Schleifschwamm oder Schleifpapier angeschliffen.

Dadurch verleiht Ihr Eurem Objekt einen etwas rustikaleren Charakter.

------------------------------------------------------------5-----------------------------------------------------

vogelhaus-schneemann_schritt5

Danach schneidet Ihr ein Rehmotiv, welches nach rechts blickt, vorsichtig aus der Serviette aus.

Trennt die oberste, bedruckte Lage ab und klebt sie mit Serviettenkleber etwa mittig auf die Vorderfront des Vogelhauses.

------------------------------------------------------------6-----------------------------------------------------

vogelhaus-schneemann_schritt6

Anschließend tragt Ihr mit der Strukturpaste und einem Spachtel den Schnee auf. Arbeitet auch um die Kanten.

------------------------------------------------------------7-----------------------------------------------------

vogelhaus-schneemann_schritt7

Für die 3-D Technik braucht Ihr den Schneemann der nach rechts schaut, sowie das Reh welches nach links schaut, je 3x.

Wieder wird nur die oberste bedruckte Lage des Motivs mit Servietten-Kleber auf die weiß grundierte Präge-Folie geklebt.

------------------------------------------------------------8-----------------------------------------------------

vogelhaus-schneemann_schritt8

Sobald der Kleber getrocknet ist, schneidet Ihr alle Motive sauber aus. Ihr solltet dann die einzelnen Teile wie abgebildet vor Euch liegen haben.

Tipp: Für das Ausschneiden solch filigraner Motive ist eine Pinzettenschere sehr gut geeignet.

------------------------------------------------------------9-----------------------------------------------------

vogelhaus-schneemann_schritt9

Dann prägt Ihr die Motive mit Prägestiften auf der Prickelmatte oder einer anderen weichen Unterlage aus. Zuerst zieht Ihr die Konturen auf der Vorderseite mit einem kleineren Prägestift nach.

Anschließend dreht Ihr das Motiv um und prägt die Flächen mit einem größeren Prägestift aus. So entsteht der wunderbare 3D-Effekt.

Nun setzt Ihr die einzelnen Motive mit Silikonkleber der Reihenfolge nach übereinander auf das Vogelhaus auf.

Tipp: Zum Aufkleben kleinerer Motive nehmt Ihr am Besten eine Pinzette zu Hilfe.

------------------------------------------------------------10-----------------------------------------------------

vogelhaus-schneemann_schritt10

Jetzt tragt Ihr noch einmal wie oben beschrieben etwas Schnee auf. Setzt in den noch nassen Schnee kleine Zweige von den Pinarbüschen sowie die kleinen Tiere und Zapfen. Auch der Schneemann bekommt noch einen kleinen Ast.

Lasst alles wieder gut trocknen!

------------------------------------------------------------11-----------------------------------------------------

vogelhaus-schneemann_schritt11

Mit Heißkleber klebt Ihr einige Birkenrinden-Streifen auf das Dach.

Zum Schluss bringt Ihr noch etwas Schnee auf das Dach auf und verseht es mit Hilfe des Eiszapfen-Mediums mit einigen wunderbaren, großen und kleinen Eiszapfen.

------------------------------------------------------------12-----------------------------------------------------

vogelhaus-schneemann

Ist es nicht einfach zauberhaft und wunderhübsch anzusehen, Euer winterliches Vogelhaus im Natur-Look? Sicherlich ist es auch eine nette Geschenk-Idee oder ein schönes Mitbringsel für Eure Lieben!

Möchtest Du diese Anleitung später nacharbeiten? Dann klicke dazu einfach auf das Drucker Symbol um diese zu speichern oder auszudrucken.

Falls sich das Dokument nicht öffnen lässt, benötigst Du evtl. den Adobe Reader. Dieser kann auf www.adobe.com kostenlos heruntergeladen werden.

Schreibe einen Kommentar