Bastelanleitung: Zeichenmappe mit Zoo-Tieren

Wenn jetzt die Schule wieder beginnt, ist auch wieder Zeit für Zeichenunterricht. Eine Mappe für die Kunstwerke der Kleinen ist da auf jeden Fall Pflicht! Aber nicht nur für die ABC-Schützen ist unsere mit Filz und Serviettentechnik gestaltete Zeichenmappe eine echte Freude: Für die zusätzlich individuelle Note sorgt das Tafelband– so könnt Ihr noch mit Kreide oder Tafelstift den Namen, die Klasse oder das Schulfach individuell ergänzen oder auf die Mappe schreiben, was euch gefällt. Und wenn Ihr Euch erinnert: Zusammen mit unserem schönen Wandbehang und unserem Stiftehalter, welche wir mit der selben Serviette gestaltet haben, ist jetzt ein wunderschönes, tierisches Set mit Zoo-Tieren für den Schulanfang entstanden.

Zeichenmappe_Schmuckbildpsd

Artikel
einblenden


------------------------------------------------------------1-----------------------------------------------------

Zeichenmappe_Schritt1_IMG_2382

Unsere Zeichenmappe hat Stoffbänder um sie zu verschließen. Damit die Bänder beim Gestalten der Mappe nicht verschmutzen, klebt Ihr sie als erstes mit etwas Klebeband ab.

------------------------------------------------------------2-----------------------------------------------------

Zeichenmappe_Schritt2_IMG_2384

Messt jetzt von der Unterseite der Zeichenmappe her 10 cm ab und markiert Euch damit eine Linie auf der Vorder- und Rückseite der Mappe. Diese 10 cm braucht Ihr nicht zu bemalen. Den Rest der Zeichenmappe, also die Vorder- und Rückseite, bemalt Ihr mit Acrylfarbe in Weiß und Blau als Himmel. Mischt die Farben erst direkt beim Bemalen, so erhaltet Ihr schöne Farbübergänge. Wir benutzen für so ein Projekt sehr gerne einen Schaumstempel, selbstverständlich könnt Ihr aber auch mit einem Pinsel arbeiten.

------------------------------------------------------------3-----------------------------------------------------

Zeichenmappe_Schritt3_IMG_2388

Wichtig! Arbeitet beim Bemalen mit so wenig Wasser wie möglich, d. h. die Farben pur und nicht mit Wasser verdünnt auftragen. Sonst weicht Euch die Archivierungsmappe zu sehr auf und wellt sich beim trocknen.

------------------------------------------------------------4-----------------------------------------------------

Zeichenmappe_Schritt4_IMG_2387_neu

Tipp: Sollte sich die Mappe beim Trocknen doch etwas wellen, beschwert Ihr diese nach dem Antrocknen der Farben und last sie so ganz austrocknen.

------------------------------------------------------------5-----------------------------------------------------

Zeichenmappe_Schritt5_IMG_2391

Während die Zeichenmappe trocknet, schneidet Ihr Euch den Bastelfilz zu: Ihr benötigt zwei Filzstreifen dunkelgrün: Schneidet je einen Streifen mit 8 cm Breite und 50 cm Länge für die Vorderseite zu und einen weiteren Streifen mit 8 cm Breite und 65 cm Länge für die Rückseite. Zum Ende unseres Bastelprojektes benötigt Ihr noch einen weiteren Filzstreifen. Der hat die Maße 9 cm x 95 cm. Den könnt Ihr gleich jetzt mit zuschneiden.

------------------------------------------------------------6-----------------------------------------------------

Zeichenmappe_Schritt6_IMG_2392_neu

Vom hellgrünen Bastelfilz benötigt Ihr zwei Zuschnitte. Einmal 20 cm breit und 50 cm lang für die Vorderseite und einmal 30 cm breit und 65 cm lang für die Rückseite.

------------------------------------------------------------7-----------------------------------------------------

Zeichenmappe_Schritt7_IMG_23932

Druckt Euch die Vorlagen aus. Die Grasvorlage schneidet Ihr Euch zweimal aus, damit Ihr das Gras individuell verlängern könnt. Übertragt die Vorlage auf eine der Längsseiten vom Filzzuschnitt.

------------------------------------------------------------8-----------------------------------------------------

Zeichenmappe_Schritt8_IMG_2395

Anschließend schneidet Ihr das Gras aus dem Filz aus.

------------------------------------------------------------9-----------------------------------------------------

Zeichenmappe_Schritt9_IMG_2407

So bereitet Ihr die beiden hellgrünen Filzzuschnitte vor.

------------------------------------------------------------10-----------------------------------------------------

Zeichenmappe_Schritt10_IMG_2406

Und auch die zwei dunkelgrünen Filzzuschnitte bekommen ihre Grasspitzen.

------------------------------------------------------------11-----------------------------------------------------

Zeichenmappe_Schritt11_IMG_24116

Beginnt mit dem Bekleben und startet auf der Rückseite der Zeichenmappe: Nehmt den Bastelkleber und den längeren der beiden dunkelgrünen Gras-Filzstreifen. Tragt den Bastelkleber mit einem Borstenpinsel gleichmäßig am Übergang vom Weiß zum Blau auf und klebt den Zuschnitt Stück für Stück auf.

Wichtig! Die Spitzen der Grashalme dürft Ihr nicht mit festkleben. Die Grasspitzen bleiben also lose.

------------------------------------------------------------12-----------------------------------------------------

Zeichenmappe_Schritt12_IMG_2412

An der rechten Seite der Zeichenmappe lasst Ihr ein kleines Stück Filz überstehen. Dieses Stück wird später auf die Vorderseite umgeschlagen.

------------------------------------------------------------13-----------------------------------------------------

Zeichenmappe_Schritt13_IMG_2413

Den dunkelgrünen Filz-Grasstreifen lasst Ihr bis über den Umschlag der Zeichenmappe laufen. Oben im Bild seht Ihr, dass noch ein Rest Filz übersteht. Den könnt Ihr erst einmal stehen lassen und später zusammen mit dem hellgrünen Filz bündig abschneiden.

------------------------------------------------------------14-----------------------------------------------------

Zeichenmappe_Schritt14_IMG_2415

Das kurze Stück Filz, das Ihr an der rechten Rückseite stehen gelassen habt, schlagt Ihr auf die Vorderseite der Zeichenmappe um. Anschließend legt Ihr den kurzen dunkelgrünen Filz-Grasstreifen bündig an der linken Vorderseite an und führt das Motiv weiter.

------------------------------------------------------------15-----------------------------------------------------

Zeichenmappe_Schritt15_IMG_2414

Den Rest Filz auf der rechten Vorderseite lasst Ihr wieder einfach überstehen. Auch dieser wird später mit dem hellgrünen Filz bündig abgeschnitten.

Wichtig! Denkt auch bei diesem Schritt daran, die Spitzen der Grashalme nicht mit anzukleben.

------------------------------------------------------------16-----------------------------------------------------

Zeichenmappe_Schritt16_IMG_2416

Danach werden die hellgrünen Graszuschnitte aus Filz aufgeklebt. Durch den Kontrast von Hellgrün und Dunkelgrün entsteht ein toller 3-dimensionaler Effekt. Fangt wieder auf der Rückseite, also mit dem großen hellgrünen Filzzuschnitt an. Streicht den weißen Streifen auf der Mappe und ein Stück vom dunkelgrünen Filz-Grasstreifen gleichmäßig bis an die Außenkanten der Zeichenmappe mit Klebstoff ein.

------------------------------------------------------------17-----------------------------------------------------

Zeichenmappe_Schritt17_IMG_2419

Den großen hellgrünen Gras-Filzzuschnitt klebt Ihr ein Stück versetzt nach unten auf, so dass die dunkelgrünen Spitzen gut zu sehen sind. Achtet auch darauf, dass die Spitzen leicht versetzt liegen, damit der 3D-Effekt noch besser zur Wirkung kommt.

Wichtig! Auch hier klebt Ihr die Grasspitzen nicht mit fest.

------------------------------------------------------------18-----------------------------------------------------

Zeichenmappe_Schritt18_IMG_2422_neu

Jetzt ist die andere Seite der Zeichenmappe dran: Dreht Euer Projekt jetzt um.

------------------------------------------------------------19-----------------------------------------------------

Zeichenmappe_Schritt19_IMG_2423_neu

Schneidet den überstehenden Filz an den Kanten der Zeichenmappe sauber ab. Nur der kleine, schmale Streifen in der Mitte der Mappe (links im Bild) bleibt stehen und wird nach innen umgeschlagen und später festgeklebt.

Tipp: Für das Abschneiden der Filz-Elemente ist ein Rollschneider sehr gut geeignet. Ihr benötigt dazu jedoch auch ein entsprechendes Scheidelineal und eine Schneidematte. So bekommt Ihr aber eine schöne gerade geschnittene Abschlusskante.

------------------------------------------------------------20-----------------------------------------------------

Zeichenmappe_Schritt20_IMG_2424

Setzt den kleineren hellgrünen Filzzuschnitt für die Vorderseite wieder links bündig an und klebt auch diesen fest. Jetzt dreht Ihr die Mappe wieder um und schneidet den überstehenden Filz wieder sauber ab. Der schmale Streifen in der Mitte der Mappe wird nach innen eingeschlagen und festgeklebt.

------------------------------------------------------------21-----------------------------------------------------

Zeichenmappe_Schritt21_IMG_2426

Nun ist der Baum dran, das Herzstück unserer Deko für die Mitte unserer Zeichenmappe: Nehmt dafür die Vorlage und übertragt alle Teile auf den entsprechenden Bastelfilz und schneidet die Teile aus.

------------------------------------------------------------22-----------------------------------------------------

Zeichenmappe_Schritt22_IMG_2428

Die Einzelteile vom Baum setzt Ihr dann auf der Vorderseite Eurer Archivierungsmappe zusammen und klebt sie fest. Der Stamm wird hinter die Grashalme aus Filz gesetzt. Deshalb sollten sie nicht festgeklebt werden.

------------------------------------------------------------23-----------------------------------------------------

Zeichenmappe_Schritt23_IMG_2430

Jetzt kommen die schönen Motive aus unserer Serviette mit den Zoo-Tieren zum Einsatz. Als Erstes schneidet Ihr den Löwen einmal sauber aus Eurer Serviette aus. Nehmt nur die oberste bedruckte Lage und klebt sie mit dem Serviettenkleber unterhalb der Baumkrone und hinter den Grasspitzen auf.

Tipp! Wenn Ihr die Grundlagen für Serviettentechnik noch einmal genau kennen lernen wollt, schaut bei unserem YouTube Kanal buttinette TV vorbei. Dort haben wir für Euch ein Video zum Thema „Grundlagen Serviettentechnik„.

------------------------------------------------------------24-----------------------------------------------------

Zeichenmappe_Schritt24_IMG_0810

Damit unsere Zeichenmappe besonders lebhaft wirkt, arbeiten wir auch einige Motive in 3D-Serviettentechnik. Grundiert Euch zuerst ein Blatt der Prägefolie mit weißer Acrylfarbe.

Tipp: Wie 3D-Serviettentechnik genau funktioniert, erkären wir Euch auch auf unserem YouTube-Kanal – im Video: 3D-Serviettentechnik.

------------------------------------------------------------25-----------------------------------------------------

Zeichenmappe_Schritt25_IMG_8909

Schneidet die Zoo-Tiere grob aus der Serviette aus und klebt nur die oberste, bedruckte Lage der Serviette mit dem Serviettenkleber auf.

------------------------------------------------------------26-----------------------------------------------------

Zeichenmappe_Schritt26_IMG_9003

Wenn alles getrocknet ist, schneidet Ihr Euch die Motive, die Ihr für Eure Zeichenmappe benötigt aus. Anschließend könnt Ihr die Motive mit den Prägestiften auf einer weichen Unterlage (Prickelmatte) prägen.

------------------------------------------------------------27-----------------------------------------------------

Zeichenmappe_Schritt27_IMG_2431

Die aus der Prägefolie geschnittenen Tiere klebt Ihr mit Silikonkleber auf die Zeichenmappe.

Tipp: Für besonders fililgrane Motive könnt Ihr eine Pinzettenschere verwenden.

------------------------------------------------------------28-----------------------------------------------------

Zeichenmappe_Schritt28_IMG_2432

Setzt einen zweiten Löwen, der in 3D-Technik geprägt ist, leicht versetzt neben den ersten Löwen, der ja schon auf der Mappe ist.

------------------------------------------------------------29-----------------------------------------------------

Zeichenmappe_Schritt29_IMG_2433

Rechts daneben könnt Ihr eine Giraffe aufkleben.

------------------------------------------------------------30-----------------------------------------------------

Zeichenmappe_Schritt30_IMG_2435

Von links gesellen sich ein Elefant und die Schildkröte dazu. Der Baum ist natürlich ideal für die Schlange, die sich den Stamm hinunter windet.

------------------------------------------------------------31-----------------------------------------------------

Zeichenmappe_Schritt31_IMG_2436

Wenn Ihr den kleinen Fisch oberhalb des Rüssels noch mit in das Bild einfügen möchtet, schneidet Ihr Euch das Motiv aus der Serviette.

------------------------------------------------------------32-----------------------------------------------------

Zeichenmappe_Schritt32_IMG_24376

Klebt nur die oberste bedruckte Lage mit dem Serviettenkleber auf.

------------------------------------------------------------33-----------------------------------------------------

Zeichenmappe_Schritt33_IMG_24406

Jetzt nehmt Ihr Euch den 9 cm breiten dunkelgrünen Filzstreifen, den Ihr bereits am Anfang zu geschnitten habt zur Hand. Dieser Streifen wird an der rechten Vorderseite und an der unteren Abschlusskante bündig angesetzt und einmal um die Archivierungsmappe geklebt.

------------------------------------------------------------34-----------------------------------------------------

Zeichenmappe_Schritt34_IMG_2441

Am Übergang vom dunkelgrünen zum hellgrünen Filz befestigt Ihr ein 6 mm breites doppelseitiges Klebeband. Auf diese klebt Ihr anschließend klebt Ihr das 10 mm breite orangefarbene Karoband.

------------------------------------------------------------35-----------------------------------------------------

Zeichenmappe_Schritt35_IMG_2442

Messt jetzt vom oberen Rand der Archivierungsmappe ca. 7 cm nach unten. Nehmt von dem breiten Kreidetape 40 cm und klebt es auf. Das Kreidetape ist selbstklebend, das heißt, Ihr müsst nur die Schutzfolie entfernen und könnt es direkt aufkleben – ohne doppelseitiges Klebeband.

Jetzt bekommt das Kreidetape noch eine Bordüre: Klebt rechts und links vom Kreidetape mit doppelseitigem Klebeband das Karoband auf.

------------------------------------------------------------36-----------------------------------------------------

Zeichenmappe_Schritt36_IMG_2443

Für den zweiten Streifen vom Kreidetape messt Ihr vom oberen Rand der Archivierungsmappe 17,5 cm nach unten. Dieser Streifen ist 33 cm lang und wird an der linken Seite bündig angesetzt.

------------------------------------------------------------37-----------------------------------------------------

Zeichenmappe_Schritt37_IMG_2446

Zwei kleine 3D-Vögel setzt Ihr auf den oberen Streifen. Vom unteren Streifen schaut die Schlange nach oben. Die 3D-Motive werden mit dem Silikonkleber aufgeklebt.

------------------------------------------------------------38-----------------------------------------------------

Zeichenmappe_Schritt39_IMG_2477

Im unteren Bereich auf dem dunkelgrünen Filz sitzt noch das 3D-Krokodil und die kleine Krabbe. Die kleinen Grasinseln werden aus dem hellgrünen Bastelfilz geschnitten und mit dem Bastelkleber aufgeklebt. Auch in den Baum könnt Ihr noch ein paar 3D-Vögel setzen.

------------------------------------------------------------39-----------------------------------------------------

Zeichenmappe_Schritt40_IMG_2458

Wenn Ihr Eure Zeichenmappe aufschlagt, sieht sie so aus: Das grüne Filz, der blaue Himmel und das Gras setzen sich innen fort.

------------------------------------------------------------40-----------------------------------------------------

Zeichenmappe_Schmuckbildpsd

Zum Schluss schnappt Ihr Euch einen Kreidestift und schreibt noch den Namen auf das Kreidetape und wofür Ihr die schöne Mappe verwenden werdet. Egal ob für die Schule, Kinderzeichnungen oder kleine Basteleien. Unsere Zeichenmappe ist der perfekte Ort für Selbstgemachtes, die Ihr individuell mit Kreide beschriften könnt. Und nicht vergessen: Zusammen mit unserem Stiftehalter und dem passenden Wandbehang, welche mit der gleichen Serviette dekoriert sind, ist die Zeichenmappe ein zauberhaftes Set für die ersten kreativen Schritte oder den ein oder anderen ABC-Schützen.

Möchtest Du diese Anleitung später nacharbeiten? Dann klicke dazu einfach auf das Drucker Symbol um diese zu speichern oder auszudrucken.

Falls sich das Dokument nicht öffnen lässt, benötigst Du evtl. den Adobe Reader. Dieser kann auf www.adobe.com kostenlos heruntergeladen werden.

2 Kommentare Schreibe einen Kommentar

  1. Ich habe gleich Lust es nachzubasteln. Aber ohne Archivierungsmappe?? 🙁 Wird sie denn irgendwann wieder bestellbar sein? Bis zum Schulanfang haben wir ja noch ein bisschen Zeit…

Schreibe einen Kommentar