Anleitung: Sonnenspiegel basteln

Sonnenspiegel basteln

Diese trendigen Sonnenspiegel könnt Ihr aus Folien- und Papierstreifen ganz einfach selber machen. Jeder Spiegel für sich ist schon eine wunderschöne, zeitlose Wanddekoration, aber zusammen sehen sie einfach noch schöner aus! Wir zeigen Euch anhand von drei Modellen wie das geht.

Sonnenspiegel basteln

Artikel
einblenden


Sonnenspiegel selber machen – so geht´s:

Die drei Modelle

Sonnenspiegel basteln - Schritt 1

– unten Modell 1

– links oben Modell 2

– rechts oben Modell 3

------------------------------------------------------------1-----------------------------------------------------

Sonnenspiegel basteln - Schritt 2

Beginnt damit, das Ihr drei Drahtringe, sowie eine Seite und die Kante von drei Bierdeckeln mit goldener Farbe besprüht.

------------------------------------------------------------2-----------------------------------------------------

Sonnenspiegel basteln - Schritt 3

Mit Hilfe eines Zirkels oder einem der Drahtringe zeichnet Ihr auf der Rückseite der Spiegelfolie drei Kreise mit einem Ø von 10 cm auf. Anschließend werden die Kreise mit dem Präzisionsmesser ausgeschnitten. Der Schnitt muss so tief sein, dass er auf der Spiegelseite sichtbar ist.

Auch wenn später die Schnittkante mit dem Drahtring verdeckt ist, solltet Ihr sehr genau arbeiten.

Wichtig: Schneidet die Spiegelfolie nicht mit einer Schere.

------------------------------------------------------------3-----------------------------------------------------

Sonnenspiegel basteln - Schritt 4

Damit Ihr die Kreise ausbrechen könnt, zieht Ihr von der Vorderseite die Schutzfolie ab.

------------------------------------------------------------4-----------------------------------------------------

Sonnenspiegel basteln - Schritt 5

Die Folie lässt sich leichter brechen, wenn Ihr anschließend auch die rückseitige Schutzfolie stückchenweise in den Zwischenräumen löst.

------------------------------------------------------------5-----------------------------------------------------

Sonnenspiegel basteln - Schritt 6

Dann brecht Ihr vorsichtig die Spiegel aus.

------------------------------------------------------------6-----------------------------------------------------

Sonnenspiegel basteln - Schritt 7

Links oben seht Ihr, was passiert, wenn Ihr die Spiegelfolie mit der Schere schneidet. Sie reißt sofort ca. 1 cm breit an der Schnittkante entlang ein.

------------------------------------------------------------7-----------------------------------------------------

Sonnenspiegel basteln - Schritt 8

Klebt den Spiegel mittig auf einen goldenen Bierdeckel.

------------------------------------------------------------8-----------------------------------------------------

Sonnenspiegel basteln - Schritt 9

Mit Schmucksteinkleber befestigt Ihr dann den goldenen Drahtring auf dem Spiegelrand. Die Spiegel sind somit vorbereitet und werden zum Trocknen beiseite gelegt.

------------------------------------------------------------9-----------------------------------------------------

Sonnenspiegel – Modell 1

Sonnenspiegel basteln - Schritt 10

Weiter geht es mit den Papierstreifen, welche auf einem Bierdeckel angeordnet werden. Bestimmt die Mitte des Bierdeckels und zeichnet einen Kreis mit einem Durchmesser von 8 cm auf. Entlang dieser Linie lassen sich die Streifen dann gleichmäßig aufkleben.

------------------------------------------------------------10-----------------------------------------------------

Sonnenspiegel basteln - Schritt 11

Für das erste Modell benötigt Ihr 18 Papierstreifen in Gold (aus Art. 82071) 35 cm lang.

In der ersten Runde werden neun Streifen zur Schlaufe gelegt und gleichmäßig, mit etwas Abstand, ca. 1 cm gemessen am oberen Rand des Bierdeckels festgeklebt.

------------------------------------------------------------11-----------------------------------------------------

Sonnenspiegel basteln - Schritt 12

Die zweite Runde wird versetzt und etwas tiefer mit ca. 1 cm Abstand zum Mittelpunkt aufgeklebt.

------------------------------------------------------------12-----------------------------------------------------

Sonnenspiegel basteln - Schritt 13

Den Spiegel anschließend mit doppelseitigem Klebeband aufkleben. Dann ist der erste von drei Sonnenspiegeln schon fertig!

------------------------------------------------------------13-----------------------------------------------------

Sonnenspiegel – Modell 2

Sonnenspiegel basteln - Schritt 14

Für dieses Modell werden 32 gold-glänzende Folienstreifen (aus Art. 83223), 52 cm lang und ein Bierdeckel benötigt.  Die Folienstreifen werden 5 cm versetzt mittig gefaltet.

------------------------------------------------------------14-----------------------------------------------------

Sonnenspiegel basteln - Schritt 15

Dann legt Ihr mit der kurzen Seite eine Schlaufe und klebt das Ende am Mittelfalz fest.

------------------------------------------------------------15-----------------------------------------------------

Sonnenspiegel basteln - Schritt 16

Anschließend nehmt Ihr das zweite längere Ende, legt eine zweite Schlaufe über die erste und befestigt das Ende am Mittelfalz. So bereitet Ihr alle 32 Streifen vor.

------------------------------------------------------------16-----------------------------------------------------

Sonnenspiegel basteln - Schritt 17

Tipp: Die Enden zum Trocknen mit einer Holzklammer fixieren.

------------------------------------------------------------17-----------------------------------------------------

Sonnenspiegel basteln - Schritt 18

Damit sich die Streifen schön gleichmäßig legen lassen, bereitet Ihr jetzt noch den Bierdeckel vor. Zuerst die Mitte bestimmen, einen Kreis mit einem Durchmesser von 8 cm aufzeichnen und den Kreis achteln.

Beginnt mit acht vorbereiteten Streifen, die Ihr in gleichen Abständen, an der Linie entlang, auf dem Bierdeckel festklebt.

------------------------------------------------------------18-----------------------------------------------------

Sonnenspiegel basteln - Schritt 19

Anschließend werden acht weitere Streifen mittig in die Zwischenräume geklebt.

------------------------------------------------------------19-----------------------------------------------------

Sonnenspiegel basteln - Schritt 20

In die verbleibenden Zwischenräume klebt Ihr die letzten 16 Streifen etwas versetzt nach oben an.

------------------------------------------------------------20-----------------------------------------------------

Sonnenspiegel basteln - Schritt 21

Jetzt noch den vorbereiteten Spiegel mittig aufkleben und das zweite Modell ist fertig!

------------------------------------------------------------21-----------------------------------------------------

Sonnenspiegel – Modell 3

Sonnenspiegel basteln - Schritt 22

Für das dritte Modell zeichnet Ihr einen Kreis mit 5 cm Durchmesser auf. Anschließend wieder achteln.

------------------------------------------------------------22-----------------------------------------------------

Sonnenspiegel basteln - Schritt 23

Bereitet jetzt die Streifen vor. Damit diese mehr Stabilität erhalten, werden bei diesem Modell alle Streifen doppelt gelegt, d.h. mittig gefaltet und mit schmalen doppelseitigem Klebeband zusammengeklebt.

Insgesamt werden benötigt:

– 8 Folienstreifen gold-glänzend, 40 cm lang – mittig falten (20 cm) und zusammenkleben

– 4 Folienstreifen gold- glänzend, 53 cm lang – halbieren (26,5 cm) –  die 8 halben Streifen mittig falten und zusammenkleben

– 32 Papierstreifen gold, 35 cm lang – mittig falten (17,5 cm) und zusammenkleben

------------------------------------------------------------23-----------------------------------------------------

Sonnenspiegel basteln - Schritt 24

Beginnt mit den acht 20 cm langen Folienstreifen. Verteilt diese gleichmäßig entlang der Linie des aufgezeichneten 5 cm-Kreises.

------------------------------------------------------------24-----------------------------------------------------

Sonnenspiegel basteln - Schritt 25

Mittig in die Zwischenräume setzt Ihr die acht kurzen Folienstreifen.

------------------------------------------------------------25-----------------------------------------------------

Sonnenspiegel basteln - Schritt 26

Anschließend werden die 16 Papierstreifen, wie abgebildet, in den Zwischenräumen verteilt. Zuerst einen Streifen an die 5 cm-Linie, dann den zweiten Streifen darüber, zur Mitte hin versetzt aufkleben.

------------------------------------------------------------26-----------------------------------------------------

Sonnenspiegel basteln - Schritt 27

Wie oben abgebildet den nächsten Streifen an die 5 cm-Linie legen, den zweiten darüber versetzt zur Mitte.

------------------------------------------------------------27-----------------------------------------------------

Sonnenspiegel basteln - Schritt 28

Am Ende sind acht Sternspitzen entstanden.

------------------------------------------------------------28-----------------------------------------------------

Sonnenspiegel basteln - Schritt 29

Da uns der Stern umgedreht besser gefallen hat, haben wir die Papierstreifen auf der Vorderseite mit einem weißen Bierdeckel abgedeckt und so zur Rückseite gemacht. Auf den weißen Bierdeckel der Rückseite klebt Ihr den vorbereiteten Spiegel.

------------------------------------------------------------29-----------------------------------------------------

Sonnenspiegel basteln - Schritt 30

Zum Ende werden die Papierstreifen, wie abgebildet, gleichmäßig abgeschrägt. Am Besten geht das, wenn Ihr den Stern flach auf eine Schneidematte legt, ein Lineal anlegt und mit einem Schneideroller oder Präzisionsmesser die Papierspitzen abschneidet.

------------------------------------------------------------30-----------------------------------------------------

Sonnenspiegel basteln – fertig!

Sonnenspiegel basteln

Für die Aufhängung werden auf der Rückseite Bildaufhänger angebracht. fertig sind drei wunderhübsche und stylische Sonnenspiegel!


Möchtest Du diese Anleitung später nacharbeiten? Dann klicke dazu einfach auf das Drucker Symbol um diese zu speichern oder auszudrucken.

Falls sich das Dokument nicht öffnen lässt, benötigst Du evtl. den Adobe Reader. Dieser kann auf www.adobe.com kostenlos heruntergeladen werden.

Schreibe einen Kommentar