Anleitung: Bestecktasche nähen

Bestecktaschen nähen

Verbreiten diese Bestecktaschen nicht sofort gute Laune? Bunte Streifen wie ein Regenbogen in Pastelltönen sorgen für gute Laune am Esstisch. Aus einem Patchworkpaket bekommt Ihr je nach Farbzusammenstellung sieben der schönen Bestecktaschen.

Bestecktaschen nähen

Artikel
einblenden


Größe: ca. 11 cm x 22 cm

------------------------------------------------------------1-----------------------------------------------------

Zuschneiden

Bestecktaschen nähen -Schritt 1

Für eine Bestecktasche

aus dem Patchworkpaket nach Wunsch:

2x Bestecktasche 13 cm x 24 cm

1x Einsteckfach Rückseite

je 1x Streifen 1 bis 7 für die Einsteckfach-Vorderseite

aus dem Volumenvlies:

1x Bestecktasche Unterseite 13 cm x 24 cm

Alle Nahtzugaben sind bereits enthalten!

------------------------------------------------------------2-----------------------------------------------------

Volumenvlies aufbügeln

Bestecktaschen nähen -Schritt 2

Zu Beginn legt Ihr eines der beiden Bestecktaschenteile mit der linken Stoffseite auf die Klebeseite des Volumenvlieses auf. Verbindet beide Teile durch Bügeln miteinander (Bügeleiseneinstellung 2-3 Punkte). Gebügelt wird auf dem Stoffzuschnitt.

------------------------------------------------------------3-----------------------------------------------------

Streifen für die Einsteckfach-Vorderseite zusammensetzen

Bestecktaschen nähen -Schritt 3

Im Anschluss legt Ihr Streifen eins und zwei rechts auf rechts aufeinander, schließt die Querteilungsnaht mit 0,5 cm Nahtzugabe.

------------------------------------------------------------4-----------------------------------------------------

Bestecktaschen nähen -Schritt 4

Als Nächstes wird dann Streifen drei an den zweiten Streifen genäht, im Anschluss vier an drei usw. das Ganze macht Ihr bis alle sieben Streifen der Reihe nach zu einem Stück zusammengenäht sind. Die Nahtzugabe beträgt immer 0,5 cm und alle Nahtzugaben werden auseinandergebügelt. Dies ist dann die Einsteckfach-Oberseite.

------------------------------------------------------------5-----------------------------------------------------

Einsteckfach zusammennähen

Bestecktaschen nähen -Schritt 5

Legt in diesem Schritt die Einsteckfach-Oberseite rechts auf rechts auf die unifarbene Rückseite. Schließt die Naht an der oberen schrägen Kante mit 0,5 cm Nahtzugabe. Die Nahtzugabe bügelt Ihr dann auseinander, dann faltet Ihr beide Stoffteile so, dass die linken Stoffseiten aufeinander treffen. Die schräge Eingriffkante der Bestecktaschenhülle bügelt Ihr dann schön flach.

------------------------------------------------------------6-----------------------------------------------------

Bestecktaschen nähen -Schritt 6

Im Anschluss legt Ihr das Einsteckfach mit der Rückseite auf die rechte Stoffseite des Bestecktaschenteiles ohne Volumenlvlies auf, die Schnittkanten seitlich und unten liegen dabei gleich. Fixiert alles mit Stecknadeln. Näht die Kanten schmal zusammen, dann kann hier schon einmal nichts mehr verrutschen.

------------------------------------------------------------7-----------------------------------------------------

Bestecktasche zusammennähen

Bestecktaschen nähen -Schritt 7

Um die Besteckhülle fertig zu stellen, legt Ihr beide Besteckhüllenteile rechts auf rechts aufeinander und fixiert alles mit Stecknadeln.

------------------------------------------------------------8-----------------------------------------------------

Bestecktaschen nähen -Schritt 8

Näht die Besteckhülle dann rundherum mit 0,7 cm Nahtzugabe zusammen, lasst dabei eine Wendeöffnung von ca. 4 cm.

------------------------------------------------------------9-----------------------------------------------------

Bestecktasche wenden und bügeln

Bestecktaschen nähen -Schritt 9

Wendet die Bestecktasche durch die Öffnung, formt diese aus und bügelt die Außenkanten schön flach.

------------------------------------------------------------10-----------------------------------------------------

Wendeöffnung verschließen und Label annähen

Bestecktaschen nähen -Schritt 10

Zum Schluss verschließt Ihr die Wendeöffnung von Hand und näht noch eines der hübschen Label auf das Einsteckfach auf. Dann habt Ihr es schon geschafft… und könnt gleich in Serie gehen 🙂


Möchtest Du diese Anleitung später nacharbeiten? Dann klicke dazu einfach auf das Drucker Symbol um diese zu speichern oder auszudrucken.

Falls sich das Dokument nicht öffnen lässt, benötigst Du evtl. den Adobe Reader. Dieser kann auf www.adobe.com kostenlos heruntergeladen werden.

Schreibe einen Kommentar