Bastelanleitung: Adventskalender-Haus

Die Adventszeit rückt immer näher. Das liebevoll gestaltete Adventskalender-Häuschen steigert die weihnachtliche Vorfreude und macht das Warten auf Heiligabend noch schöner und spannender!

Wir wünschen Euch viel Spaß beim Nachbasteln!

adventskalender-haus

Artikel
einblenden


------------------------------------------------------------1-----------------------------------------------------

IMG_6143

Zuerst grundiert Ihr das Adventskalender-Haus komplett weiß.
Sollte das Ergebnis nicht zufriedenstellend sein, dann könnt Ihr diesen Vorgang wiederholen

------------------------------------------------------------2-----------------------------------------------------

IMG_6144

Danach grundiert Ihr auch die Prägefolie in weiß und lässt sie trocknen.

------------------------------------------------------------3-----------------------------------------------------

IMG_6145

Schneidet verschiedene Motive grob aus der Serviette aus, trennt die oberste, bedruckte Lage ab und klebt diese mit Serviettenkleber auf das weiß grundierte Prägemetall.

Wichtig: lasst alles gut trocknen!

------------------------------------------------------------4-----------------------------------------------------

IMG_6147

Für das Dach schneidet Ihr rot-weiß karierte Streifen aus der Serviette aus.
Klebt sie mit Serviettenkleber auf das Dach sowie über die Kanten.

------------------------------------------------------------5-----------------------------------------------------

IMG_6149

Markiert anschließend für die Lichterkette 10 Punkte auf der Vorderseite des Hauses.

------------------------------------------------------------6-----------------------------------------------------

IMG_6151

Nehmt einen Bohrer (5,5 mm – 6 mm) und bohrt die Löcher für die Lämpchen der Lichterkette.

Tipp: Unbedingt von der Vorderseite des Hauses bohren! So ist gewährleistet das die Löcher von vorne sauber gebohrt sind.

Auf der Rückseite kann das Bohrloch ausgefranzt sein.

------------------------------------------------------------7-----------------------------------------------------

IMG_6160

Danach schneidet Ihr drei Tannenbäume sauber aus der Serviette aus und klebt sie mit Serviettenkleber oben in das Haus.
Die Bohrlöcher verziert Ihr mit verschiedenen Klebesticker-Motiven.

------------------------------------------------------------8-----------------------------------------------------

IMG_6166

Danach bringt Ihr die Lichterkette an der Rückseite des Häuschens an.
Sollten die Lampen nicht von allein in den Löchern halten, dann mit ein wenig Heißkleber nachhelfen.

------------------------------------------------------------9-----------------------------------------------------

IMG_6152

Nun schneidet Ihr die Tannenbäume, die Ihr zuvor auf das Prägemetall geklebt habt, sauber aus. Am Besten nehmt Ihr dafür die Pinzettenschere.

WICHTIG: Den Stamm unbedingt länger lassen! Später wird das verlängerte Stück umgebogen.

------------------------------------------------------------10-----------------------------------------------------

IMG_6153

Jetzt prägt Ihr die Tannenbäume mit Prägestiften auf der Prickelmatte oder einer anderen weichen Unterlage aus.

Zuerst zieht Ihr die Konturen auf der Vorderseite mit einem kleineren Prägestift nach.
Anschließend dreht Ihr das Motiv um und prägt die Flächen mit einem größeren Prägestift aus.
So entsteht ein wunderbarer 3D-Effekt.

------------------------------------------------------------11-----------------------------------------------------

IMG_6154

Biegt dann das Ende des Stammes um.

------------------------------------------------------------12-----------------------------------------------------

IMG_6161

Schneidet auch die anderen, zuvor aufgeklebten Motive aus und prägt sie wie zuvor beschrieben aus.

------------------------------------------------------------13-----------------------------------------------------

IMG_6162

Fädelt anschließend ca. fünf verschiedene, fertig geprägte Motive mit Hilfe einer Nadel auf rotes Stickgarn auf und knotet eine kurze Aufhängung zusammen.

------------------------------------------------------------14-----------------------------------------------------

IMG_6163

Danach fädelt Ihr die Motive auf ein ca. 40 cm langes Stück rote Kordel auf.
Die beiden Enden der Kordel verseht Ihr mit einem Knoten.

------------------------------------------------------------15-----------------------------------------------------

IMG_6164

Klebt dann die Kordel an den Knoten mit Heißkleber an die vordere Kante des Hausdachs.

------------------------------------------------------------16-----------------------------------------------------

IMG_6170

Als Nächstes klebt Ihr auch die fertig geprägten Tannenbäume an der umgebogenen Lasche mit Heißkleber oben links in das Haus.

------------------------------------------------------------17-----------------------------------------------------

IMG_6171

Befestigt die beiden Dekofiguren ebenso mit Heißkleber oben im Haus.

------------------------------------------------------------18-----------------------------------------------------

IMG_6175

Im nächsten Schritt gestaltet Ihr die Türchen Eures Adventskalenders.
Dazu braucht Ihr die grünen Holzperlen. Diese werden als Griff mit einem kleinen Heißklebepunkt an das Türchen geklebt.
Schneidet dann verschiedene kleinere Serviettenmotive aus und klebt Sie mit Serviettenkleber auf die Türchen.
Danach verteilt Ihr noch die roten Klebestickerzahlen auf den Türchen.

------------------------------------------------------------19-----------------------------------------------------

IMG_6174

Wer möchte, kann auch noch einige kleine Serviettenmotive auf einen Rest Prägefolie aufkleben, sie anschließend ausprägen und mit Silikonkleber auf die Türchen kleben.

------------------------------------------------------------20-----------------------------------------------------

IMG_6172

So könnt Ihr alle Türchen unterschiedlich und ganz nach Eurem Geschmack gestalten.

------------------------------------------------------------21-----------------------------------------------------

IMG_6167

Zum Schluss gestaltet Ihr noch die beiden Seitenwände des Adventskalenders.
Hierfür schneidet Ihr zwei Streifen aus der Serviette aus.

------------------------------------------------------------22-----------------------------------------------------

IMG_6168

Klebt dann die beiden Streifen mit Serviettenkleber der Länge nach auf die Seitenwände auf.

------------------------------------------------------------23-----------------------------------------------------

adventskalender-haus

Und fertig ist Euer liebevoll verzierter Adventskalender!
Jetzt braucht Ihr die 24 Türchen nur noch mit kleinen Überraschungen befüllen und damit einem lieben Menschen eine Freude machen!

Möchtest Du diese Anleitung später nacharbeiten? Dann klicke dazu einfach auf das Drucker Symbol um diese zu speichern oder auszudrucken.

Falls sich das Dokument nicht öffnen lässt, benötigst Du evtl. den Adobe Reader. Dieser kann auf www.adobe.com kostenlos heruntergeladen werden.

Schreibe einen Kommentar